Metall Doctor - все о рок музыке
Тексты песен 25.02.2009 569 0

Дай руку мне! (табы)

Tемп: модуляция (127 bpm)
РИФФ 1 (w/heavy distortion)
     E-------------------------------------------------------------------
     H-----------------------------------6---5---------------------------
     G--7-------5---7----------------------------7---5-------------------
     D--7-------5---7----------------------------------------------------
     A--5-----------5----------------------------------------------------
     E-------------------------------------------------------------------


     E-------------------------------------------------------------------
     H-------------------------------------------------------------------
     G-----------------------------/5h6----------------------------------
     D--7-------5---7--------------------7-------5---7-------------------
     A--7-------5---7--------------------7-------5---7-------------------
     E--5-----------5--------------------5-----------5-------------------



РИФФ 2:
     E-------------------------------------------------------------------
     H--6---------------6-----8-----10---6---------------6-----8-----10--
     G--7---------------7-----9-----10---7---------------7-----9-----10--
     D-------------------------------------------------------------------
     A-------------------------------------------------------------------
     E-------------------------------------------------------------------
                                     
 БАС G-------------------------------------------------------------------
     D-------------------------------------------------------------------
     A--5---5---5---5---5---5---5---5------------------------------------
     E-----------------------------------6---6---6---6---6---6---6---6---
 
     E-------------------------------------------------------------------
     H--8---------------8-----10----11------------------/11----10----8---
     G--9---------------9-----10----12---9--------------/12----10----9---
     D-----------------------------------10------------------------------
     A-------------------------------------------------------------------
     E-------------------------------------------------------------------
                                   
 БАС G-------------------------------------------------------------------
     D-------------------------------------------------------------------
     A--3---3---3---3---3---3---3---3------------------------------------
     E-----------------------------------5---5---5---5---5---5---5---5---
 
     E-------------------------------------------------------------------
     H--8--6-----------6-----8-----10-------------------------5-----6---
     G--9--7-----------7-----9-----10---7---------------7-----5-----7---
     D-----------------------------------8---------------8---------------
     A-------------------------------------------------------------------
     E-------------------------------------------------------------------
  
 БАС G-------------------------------------------------------------------
     D-------------------------------------------------------------------
     A--5---5---5---5---5---5---5---5------------------------------------
     E-----------------------------------6---6---6---6---6---6---6---6---
 
     E-------------------------------------------------------------------
     H------------------------6-----8----6-------------------------------
     G--6---------------9-----7-----9----7-------------------------------
     D--7---------------7------------------------------------------------
     A-------------------------------------------------------------------
     E-------------------------------------------------------------------
  
 БАС G-------------------------------------------------------------------
     D-------------------------------------------------------------------
     A-----------------------------------5---5---5---5---5---5---5---5---
     E--5---5---5---5---5---5---5---5------------------------------------
 
     E-17p13-------1310------------------------------------------------------------
     H-------15---------15----15p10-------------------------------------------------
     G----------14---------10------10---12-10-9-----7---------------6---------------
     D-------------------------------12---------10--8---------------7---------------
     A------------------------------------------------------------------------------
     E------------------------------------------------------------------------------
   
 БАС G-------------------------------------------------------------------
     D-------------------------------------------------------------------
     A--8---8---5---5--------------------5---------------4---------------
     E------------------6---6---3---3----6---------------5---------------



 КУПЛЕТ 1:


    Дай        ру   -   ку      мне!
E-------------------------------------------------------------------
H-------------------------------------------------------------------
G-------------------------------------------------------------------
D--7-----------5-------3-------7----7-----------3---3---------------
A--5-----------3-------1-------5----5-----------1---1---------------
E-------------------------------------------------------------------


E-------------------------------------------------------------------
H-------------------------------------------------------------------
G-------------------------------------------------------------------
D--------------5---------------3------------------------------------
A--0---4---7-----------4---5------------0---1---0-------0---5---0---
E---------------------------------------------------1---------------
  Здесь          лиш  - них     нет!
E-------------------------------------------------------------------
H-------------------------------------------------------------------
G-------------------------------------------------------------------
D--7-----------5-------3-------7----7-----------3---3---------------
A--5-----------3-------1-------5----5-----------1---1---------------
E-------------------------------------------------------------------


E-------------------------------------------------------------------
H-------------------------------------------------------------------
G-------------------------------------------------------------------
D--------------5---------------3------------------------------
A--0---4---7-----------4---5------------0---1---0-------------------
E-------------------------------------------------------------------
    Вет    -    ру              ты    кажешся не  боль - ше  пес -
E-------------------------------------------------------------------
H-------------------------------------------------------------------
G----------3-----------3--------------------3-----------3-------2---
D----------3-----------3--------------------3-----------3-------0---
A--1---1-------0---1-----------0----1---1-------0---1---------------
E-------------------------------------------------------------------
    чин   -   ки.
E-------------------------------------------------------------------
H-------------------------------------------------------------------
G-(2)------------------2-------x----2-------x---x---2---------------
D-(0)------------------0-------x----0-------x---x---0---------------
A-------------------------------------------------------------------
E-------------------------------------------------------------------
     Ве    -    тер            лег - ко  собьёт  с доро  -  ги,
E-------------------------------------------------------------------
H-------------------------------------------------------------------
G----------3-----------3--------------------3-----------3-----------
D----------3-----------3--------------------3-----------3-----------
A--1---1-------0---1-----------0----1---1-------0---1---------------
E-------------------------------------------------------------------
    ес - ли  в  скитань  -  ях        ты       о  -  ди - нок.
E-------------------------------------------------------------------
H-------------------------------------------------------------------
G------------------3-------2--------5-------3-------2---2-----------
D------------------3-------2--------5-------3-------2---2-----------
A--0---0---0---0---1-------0--------3-------1-------0---0-----------
E-------------------------------------------------------------------



ПРИПЕВ:


    Сила    тво - я                   в том, что ты  есть,  
E-------------------------------------------------------------------
H-----------------------------------6---5---------------------------
G--7-------5---7----------------------------7---5-------------------
D--7-------5---7----------------------------------------------------
A--5-----------5----------------------------------------------------
E-------------------------------------------------------------------
    Сила    тво - я               в том, что мы здесь!
E-------------------------------------------------------------------
H-------------------------------------------------------------------
G-----------------------------/5h6----------------------5-----------
D--7-------5---7--------------------7-------5---7-------5-----------
A--7-------5---7--------------------7-------5---7-------------------
E--5-----------5--------------------5-----------5-------------------
   Сила    тво - я                 в том,  что ты  есть,  
E-------------------------------------------------------------------
H-----------------------------------6---5---------------------------
G--7-------5---7----------------------------7---5-------------------
D--7-------5---7----------------------------------------------------
A--5-----------5----------------------------------------------------
E-------------------------------------------------------------------
   Сила    твоя - я                в том,  что мы здесь!
E-------------------------------------------------------------------
H-------------------------------------------------------------------
G-----------------------------/5h6----------------------------------
D--7-------5---7--------------------7-------5---7-------------------
A--7-------5---7--------------------7-------5---7-------------------
E--5-----------5--------------------5-----------5-------------------
Играется Рифф 2
Потом идёт 2 куплет
Припев
Потом третий
И следом СОЛО(Т-трэппинг):
E--------------------------T---T---T---T---T---T---
H--17бэнд19----------------20p15-20p15-20p15-20p14-
G--------------------------------------------------
D--------------------------------------------------
A--------------------------------------------------
E--------------------------------------------------


ET---T---T---T---T---T-----T------T-----T-----T----T---
H20p14-20p14-20p12-20p12-20p12-20p10-20p10-20p10-20p10-
G------------------------------------------------------
D------------------------------------------------------
A------------------------------------------------------
E------------------------------------------------------


E----T---T---T---T---T---T---T---T---T----------------------
H-p8-20p8-20p8-20p7-20p7-20p7-20p5-20p5-20p5-20p3--5--3--2--
G-----------------------------------------------------------
D-----------------------------------------------------------
A-----------------------------------------------------------
E-----------------------------------------------------------


E-----------------------------------------------------------
H--------------------2-----5~~----3~~~~~--------------------
G-3---------------------------------------------------------
D-----------------------------------------------------------
A-----------------------------------------------------------
E-----------------------------------------------------------



E--------------------------------------------9-----
H--2h3p2------------------------------7h8h10-------
G--------4-----------------4h6h7-7-/9--------------
D--------------------------------------------------
A--------------------------------------------------
E--------------------------------------------------


E-(9)---------------/14~~~~~~~~~~~~~~~~~~~~--------
H--------------------------------------------------
G--------------------------------------------------
D--------------------------------------------------
A--------------------------------------------------
E--------------------------------------------------


E--------------------------6---7---6---------------
H-------------------/6--7--------------7---6---5---
G--------3-h4-h6-----------------------------------
D-----3--.--.--.-----------------------------------
A-----.--------------------------------------------
E--------------------------------------------------


E-12bend14---- тремоло секция------------------
H--------------------------------------------------
G--------------------------------------------------
D--------------------------------------------------
A--------------------------------------------------
E--------------------------------------------------


E--------------------------------------------------
H--------------------------------------------------
G--7~~~~~~~~~~~~~~---------7-----------9-----10----
D--------------------------------------------------
A--------------------------------------------------
E--------------------------------------------------



E--------------------------------------------------
H--------------------------------------8---10--11--
G-7~~~~~~~~~~~-------------7---9---10--------------
D--------------------------------------------------
A--------------------------------------------------
E--------------------------------------------------



E--------------------------------------------------
H--------------------------------------6---7---8---
G--9~~~~~~~~~~~~~----------7---8---9---.---.---.---
D--------------------------.---.---.---------------
A--------------------------------------------------
E--------------------------------------------------


E--6--5--------------------------------------
H----------6p5-----8p5-----8--5-----------5--------
G----------------------7p6-------7--6--7-----7--6--
D--------------------------------------------------
A--------------------------------------------------
E--------------------------------------------------


                                 T
E--------------------------/13-17p13p10------------
H---------------------------------------10~~~~~~---
G--7-----------------------------------------------
D--------------------------------------------------
A--------------------------------------------------
E--------------------------------------------------


E--------------------------------------------------
H--------------------------------------------------
G-10--------------10-10p9--------------------------
D-------------------------12-----------------------
A--------------------------------------------------
E--------------------------------------------------


E-/17-17-18-18-17p15-------------------------------
H--------------------18-18p17p15----.... ???? ...--
G--------------------------------------------------
D--------------------------------------------------
A--------------------------------------------------
E--------------------------------------------------


E--------------------------------------------------
H--------------------------------------------------
G--------------------------------------------------
D--------------------------------------------------
A--------0-----1-----0-----------0-----5-----0-----
E--------------------------1-----------------------


ПОВТОР 2-го КУПЛЕТА


ПРИПЕВ:


   Сила   твоя - я                  в том,  что ты  есть,  
E--------------------------------------------------------------------
H--------------------------------------------------------------------
G--7-----------7---------------7----(7)----------5---------------5---
D--7-----------7---------------7----(7)----------5---------------5---
A--5-----------5---------------5----(5)----------3---------------3---
E--------------------------------------------------------------------
   Сила   твоя - я                  в том,  что мы здесь!
E--------------------------------------------------------------------
H--------------------------------------------------------------------
G-(5)------------------------------------------------------------5---
D-(5)----------7---------------7----(7)----------7---------------5---
A-(3)----------7---------------7----(7)----------7---------------3---
E--------------5---------------5----(5)----------5-------------------
   Сила   твоя - я                  в том,  что  ты  есть,  
E--------------------------------------------------------------------
H--------------------------------------------------------------------
G-(5)----------7---------------7----(7)----------5---------------5---
D-(5)----------7---------------7----(7)----------5---------------5---
A-(3)----------5---------------5----(5)----------3---------------3---
E--------------------------------------------------------------------
   Сила    твоя - я                 в том,  что мы здесь!
E--------------------------------------------------------------------
H--------------------------------------------------------------------
G-(5)----------------------------------------------------------------
D-(5)----------7---------------7----(7)----------7-------------------
A-(3)----------7---------------7----(7)----------7-------------------
E--------------5---------------5----(5)----------5-------------------



ДАЛЕЕ ИГРАТЬ РИФФ 2


OUTRO:
E------------------------------------------------------------------
H------------------------------------------------------------------
G------------------------------------------------------------------
D-----------------------------7----(7)-----------------------------
A-----0---1---0-------0---5---5----(5)-----------------------------
E-----------------1------------------------------------------------


 THE END:*))

Комментарии (0)

Нет комментариев =(

Оставить комментарий

Зарегистрируйтесь чтобы оставить комментарий.
Группа Ария

Ария

Хеви-метал
О группе

Добавленные недавно

Яндекс.Метрика Рейтинг@Mail.ru