Metall Doctor - все о рок музыке
Тексты песен 25.02.2009 572 0

Осколок льда

Осколок льда.


Вступление:


-----0--1--3---------3---1---1--0--0p1------
--2----------------2---2---2------------2---
-------------------------------------------- 
--0-----------------------------0----------- 
--------------------------------------------  
                                                                          
--------------0---------------------       
-----0--1--3---------3---1---0--2---     
--2----------------2---2---2--------  - 2 раза. 
--0-----------------------------0--- 
------------------------------------
------------------------------------



Основной перебор _!_(Только для 1,2 куплета и 1 припева)_!_:


      Am - 2 раза                     C - 2 раза
E------------------------------------------------------
B--------1-----0-----1--------------1-----0-----1------
G-----2-----2-----2-----2--------0-----0-----0-----0---
D------------------------------------------------------
A--0--------------------------3------------------------
E------------------------------------------------------


           F - 1 раз                 G - 1 раз               
--------------------------------------------------------
---------1-----0-----1---------------3-----5-----3------
------2-----2-----2-----2---------4-----4-----4-----4---
--------------------------------------------------------
---3---------------------------3------------------------
--------------------------------------------------------
        Am* - 1 раз                                   
---------------------------------------------------
---------1-----0-----1-----3-----1----0-----1------
------2-----2-----2-----2-----2-----2----2-----2---
---------------------------------------------------
---0-----------------------------------------------
---------------------------------------------------
  С* - 1 раз         G* - 1 раз         D*  - 2 раза  
 
-----------------------------------------2-----3-----2------
---------2---------------3------------3-----3-----3-----3---
------0-----0---------4-----4-------------------------------
-----------------------------------0------------------------
---3---------------3----------------------------------------
------------------------------------------------------------
     Dm* - 1 раза                 X - 1 раз
                                
---------1-----0-----1------------------------
------3-----3-----3-----3---------------------
----------------------------------------------
---0------------------------------------------
-------------------------------3^5--3--2--3---
----------------------------------------------



Куплет 1


Am                  C
Ночь унесла тяжелые тучи
     F          G           Am*
Но дни горьким сумраком полны
 Am                        C
Мы расстаемся - так будет лучше
    F          G              Am*
Вдвоем нам не выбраться из тьмы...


  ПРИПЕВ 1:
(Перебором)


  F      G         Am   
  Я любил и ненавидел                              
F       G            Am       
  Но теперь душа пуста
F        G           C* G*        Am - 1 раз
  Все исчезло, не оставив и следа
              F         G            D*   Dm*   X
  И не знает боли в груди осколок льда...


Куплет 2:


Я помню все, о чем мы мечтали
Но жизнь не для тех, кто любит сны
Мы слишком долго выход искали
Но шли бесконечно вдоль стены...


  ПРИПЕВ 2:
  (Боем)


      Y - 1 раз             Z  - 1 раз
---------------------------------------
---------------------------------------
---------------------------------------
---------------------------------------
---5--3--2---3--2--0------5--3--2--3---
---------------------------------------


     F      G         Am   Y
     Я любил и ненавидел                              
   F       G            Am       
     Но теперь душа пуста
 Z F        G           C  G       Am
     Все исчезло, не оставив и следа
                 F         G            D   Dm         (D - играть дольше, чем обычно) 
     И не знает боли в груди осколок льда...           (Dm - 1 раз провети по струнам)


----------------------------
---3-----1-----0-----1------
------2-----2-----2-----2---
----------------------------
----------------------------
----------------------------



Куплет 3:


(Эта таблатура только для 3 куплета!)


  Am                 C                   F       G     
---0------0---------------0------------1------3---
---1------1------------------1---------1------3---
---2------0---Немного-----------0------2------4---
---2------2---подождать----------------3------5---
---0------3----------------------------3------5---
---0------0----------------------------1------3---
  Am*                                          Am$
---0-------------------------------------------5----------------------------
---1---------------3-----1-----0-----1---------5----------------------------
---2---Немного--------2-----2-----2-----2------5---Немного------------------
---2---подождать-------------------------------7---подождать----------------
---0-------------------------------------------7---------------5--3--2--3---
---0-------------------------------------------5----------------------------


  Am                        C
Пусть каждый сам находит дорогу -
    F             G             Am*
Мой путь будет в сотню раз длинней
 Am                      C
Но не виню ни черта, ни Бога
   F        G            Am$
За все платить придется мне!



  ПРИПЕВ 3:
  (Боем)


   F      G         Am   Y
     Я любил и ненавидел                              
   F       G            Am       
     Но теперь душа пуста
 Z F        G           C  G       Am
     Все исчезло, не оставив и следа
                 F         G            D       (D - играть дольше, чем обычно)      
     И не знает боли в груди осколок льда...          
                 F         G            Am      (Am - 1 раз провети по струнам)
     И не знает боли в груди осколок льда...


-----0--1--3---------3---1---1--0--0p1------
--2----------------2---2---2------------2---
-------------------------------------------- 
--0-----------------------------0----------- 
--------------------------------------------  
                                                                          
--------------0---------------------       
-----0--1--3---------3---1---0--2---     
--2----------------2---2---2--------   
--0-----------------------------0--- 
------------------------------------
------------------------------------

Комментарии (0)

Нет комментариев =(

Оставить комментарий

Зарегистрируйтесь чтобы оставить комментарий.
Группа Ария

Ария

Хеви-метал
О группе

Добавленные недавно

Яндекс.Метрика Рейтинг@Mail.ru