Metall Doctor - все о рок музыке
Тексты песен 14.03.2009 786 0

Проклятый старый дом

Accords:

Hm A
 В заросшем парке 
Em G
 Стоит старинный дом
Hm A  
 Забиты окна 
Em
 И мрак царит
  G
 Извечно в нём

G A
 Сказать я пытался:
F#m Hm Hm A
 Чудовищ нет на земле
G A
 Но тут же раздался 
F#m Hm
 Ужасный голос во мгле 
Hm A G
 Голос во мгле

Припев:


Hm G A
 Мне больно видеть белый свет, 
  F#m
 Мне лучше в полной темноте 
Hm G A
 Я очень много, много лет 
  F#m
 Мечтаю только о еде 
 
Мне слишком тесно взаперти 
 И я мечтаю об одном - 
 Скорей свободу обрести 
 Прогрызть свой ветхий старый дом
 Проклятый старый дом 

Был дед, да помер 
Слепой и жутко злой. 
Никто не вспомнил о нём 
C зимы холодной той 

Соседи не стали 
Его тогда хоронить 
Лишь доски достали -
Решили заколотить двери и окна

Припев:

Мне больно видеть белый свет, 
Мне лучше в полной темноте 
Я очень много, много лет 
Мечтаю только о еде 
Мне слишком тесно взаперти 
И я мечтаю об одном - 
Скорей свободу обрести 
Прогрызть свой ветхий старый дом
Проклятый старый дом

И это место стороной 
Обходит сельский люд
И суеверные твердят - 
Там призраки живут.


Guitar 1
Chorus: 3x  
E---------------------------------
B---------------------------------
G-4-4-4-4-4-4-4-4-----------------
D-4-4-4-4-4-4-4-4-5-5-5-5-5-5-5-5-
A-2-2-2-2-2-2-2-2-5-5-5-5-5-5-5-5-
E-----------------3-3-3-3-3-3-3-3-

E---------------------------------
B---------------------------------
G---------------------------------
D-7-7-7-7-7-7-7-7-4-4-4-4-4-4-4-4-
A-7-7-7-7-7-7-7-7-4-4-4-4-4-4-4-4-
E-5-5-5-5-5-5-5-5-2-2-2-2-2-2-2-2-

INTRO:
E---------------------------------  
B-5-7-7-7-5-7-7-7-5-7-7-7-5-7-7-7-
G-6-7-7-7-6-7-7-7-6-7-7-7-6-7-7-7-
D---------------------------------
A---------------------------------
E---------------------------------

E---------------------------------
B-5-7-7-7-5-7-7-7-5-7-7-7-5-7-7-7-
G-6-7-7-7-6-7-7-7-6-7-7-7-6-7-7-7-
D---------------------------------
A---------------------------------
E---------------------------------

E---------------------------------
B-7-------------------------------
G-7-------------------------------
D---------------------------------
A---------------------------------
E---------------------------------
   
E---------------------------------
B---------------------------------
G-4-4-4-4-4-4-4-4-----------------
D-4-4-4-4-4-4-4-4-5-5-5-5-5-5-5-5-
A-2-2-2-2-2-2-2-2-5-5-5-5-5-5-5-5-
E-----------------3-3-3-3-3-3-3-3-

E---------------------------------
B---------------------------------
G---------------------------------
D-7-7-7-7-7-7-7-7-4-4-4-4-4-4-4-4-
A-7-7-7-7-7-7-7-7-4-4-4-4-4-4-4-4-
E-5-5-5-5-5-5-5-5-2-2-2-2-2-2-2-2-

Bass:
Verse 2x:
G-----------------------------------------
D-----------------------------------------
A-22-22-22-00-0-0-------------------------
E-----------------00-00-00-22-2-2---------

Part2 :play 2x
G-----------------------------------------
D-----------------------------------------
A---------00000000--------2222222222222-0-
E-33333333--------22222222----------------

Chorus:
G-----------------------------------------
D-----------------------------------------
A-22..----00..----------------------------
E-----33..----22..------------------------

INTRO:2X
G---------------------
D---------------------
A------0000-5555-2222-
E-3333----------------

Verse:
Verse part2:
Chorus:

Bridge:
G-------------------------
D-------------------------
A-------------------------
E-//0-2—-2-0-2-—2-0-2-5-3-

Комментарии (0)

Нет комментариев =(

Оставить комментарий

Зарегистрируйтесь чтобы оставить комментарий.
Группа Король и Шут

Король и Шут

Панк-рок, Хоррор-панк, Фолк-панк
О группе

Добавленные недавно

Яндекс.Метрика Рейтинг@Mail.ru