Metall Doctor - все о рок музыке
Тексты песен 26.02.2009 735 0

Штиль

1
Dm           C/a
Штиль . Ветер молчит,
 Gm            Dm
Упал белой чайкой на дно


Штиль. Наш корабль забыт
 
Один в мире скованным сном



Pre-Chorus


B                              C  
Между всех времен без имен и лиц
B                                C                  C/a
Мы уже не ждем, что проснется бриз


                                                   2
Штиль. Сходим с ума,


Жара пахнет чёрной смолой


Смерть одного лишь нужна


И мы вернёмся домой.



Небо, плоть и кровь вновь насытят нас


А за смерть ему может Бог воздаст.


Припев:


Riff 1:


Что нас ждет море хранит молчанье


 Жажда жить сушит сердца до дна


Только жизнь здесь ничего не стоит


Жизнь других, но не твоя
                                                  3
Нет, гром не грянул с небес
Когда пили кровь как зверьё
Но нестерпимым стал блеск
Креста, что мы южным зовем
И в последний миг поднялась волна
И раздался крик: «Впереди земля”.


Припев.(2раза) .


 


Riff 1:
1------------------------------------------------------------------------------------------------------
2---------------------------------------------------------------------------------------------------------------
3--7-------------9------------10---------------7---9---10------------------------------------------
4--7-------------9------------10---------------7---9---10-----8---------7-------------------------
5--5--0-0-0-0-7---0-0-0-0-8----0-0-0-0---5---7---8------------8--------10-------------------
6------------------------------------------------------------------------------------------------------



1------------------------------------------------------------------------------------------------------
2---------------------------------------------------------------------------------------------------------------
3--7-------------9------------10---------------7---9---10------------------------------------------
4--7-------------9------------10---------------7---9---10-----8---------------7-------------------
5--5--0-0-0-0-7---0-0-0-0-8----0-0-0-0---5---7---8------------8---------------------------
6------------------------------------------------------------------------------------------------------

Комментарии (0)

Нет комментариев =(

Оставить комментарий

Зарегистрируйтесь чтобы оставить комментарий.
Группа Ария

Ария

Хеви-метал
О группе

Добавленные недавно

Яндекс.Метрика Рейтинг@Mail.ru